像风一样

歌手:薛子谦
编配者:神棍大大
--------------------------------------
原调: 1=D  选调: 1=C  Capo=2
  
start_of_tab
|-3---2---3---2---|-------------|-0--0--0--0|
|-0-------0-------|----0--------|-1--1--1--1|
|-0-------0-------|-2---------0-|-0---------|
|-0-------2-------|-------0-----|-2---------|
end_of_tab
start_of_tab
|-2--2--2--2---|-3---3---3---3---|-3--3--3--3--|
|-3--3--3--3---|-0---0---0---0---|-0--0--0--0--|
|-2------------|-0---------------|-0-----------|
|-0------------|-0---------------|-0-----------|
end_of_tab


[C]我等的模样好不具[Am]]象
[F]用皮肤感受你的流[G]向

你[C]竟然能做到带走阳[Am]光
我[F]一味地跟[G]随过了[C]量

start_of_chorus
[C]像风一样
你靠近[Am]云都下降
你卷起[F]千层海浪我躲也[G]不躲往里闯
你不就[C]像风一样
侵略时[Am]沙沙作响
再宣布[F]恢复晴朗就好像[G]我们两个没爱过一[C]样
end_of_chorus

发表回复

您的电子邮箱地址不会被公开。